Guitar Licks Exchange

Hrajete na nějaký hudební nástroj? O své zkušenosti se můžete podělit zde.
Odpovědět
Uživatelský avatar
Arguit
Příspěvky: 106
Registrován: pát 22. srp 2008 23:16:44

Guitar Licks Exchange

Příspěvek od Arguit » ned 10. kvě 2009 1:17:43

Mate nejaky vlastni pekny kytarovy lick? Pojdme se navzajem neco priucit! (^.^)\m/

Vzdy nahodte popis (tonina, postupy, apod..), nahravku a tabu.

(Co vy na to? Prihodim prvni svuj.)

=================
Lick 01
=================
:: description
a moll harmonicka
=================
:: mp3
download
=================
:: tab

Kód: Vybrat vše

    |-3-| |-3-| |-3-| |-3-| |-3-| |-3-| |-3-| |-3-|  
     S S S S S S S S S S S S S S S S S S S S S S S S 
E||--------------------------------5-0-0-7-0-0-8-0-0-|
B||--------------------------5-6-8-------------------|
G||--------------------4-5-7-------------------------|
D||--------------6-7-9-------------------------------|
A||--------5-7-8-------------------------------------|
E||--5-7-8-------------------------------------------|

   |-3-|  |-3-|  |--3--| |--3--| |--3-| |-3-| |-3-| |3|   
   S S S  S S S  S  S  S S  S  S S S  S S S S S S S S E   
--10-0-0-12-0-0-13-12-10-8-12-10-8-7-10-8-7-5-8-7-5-4-5~--|
----------------------------------------------------------|
----------------------------------------------------------|
----------------------------------------------------------|
----------------------------------------------------------|
----------------------------------------------------------|

  |--3--|  |--|         |--3--|  |--3--|   
  S  S  S  S  E   Q     E  E  E  E  E  E   
--L-------12-16--17~----------------------|
-------13---------------------------------|
----14------------------------------------|
------------------------2--L--L--L--L--L--|
------------------------0--L--L--L--L--L--|
------------------------------------------|

Uživatelský avatar
Arguit
Příspěvky: 106
Registrován: pát 22. srp 2008 23:16:44

Re: Guitar Licks Exchange

Příspěvek od Arguit » ned 10. kvě 2009 15:20:48

=================
Lick 02
=================
:: description
a moll harmonicka + zmenseny arpeggia
1. takt 5/4 trioly
=================
:: mp3
download
=================
:: tab

Kód: Vybrat vše

  |-3-| |-3-| |-3-| |-3-| |-3-|  |-3-| |-3-|  |-3-|  |-3-|  |-3-|  
  S S S S S S S S S S S S S S S  S S S S S S  S S S  S S S  S S S 
--8-5-------5-8-5-------5-8-5---10-7-------7-10-7--------7-10-7---|
------6---6-------6---7-------7------8---8--------8----9--------9-|
--------5-----------8------------------7------------10------------|
------------------------------------------------------------------|
------------------------------------------------------------------|
------------------------------------------------------------------|

  |--3--|  |--3--|  |--3--|  |--3--|  |--3--|  |--3-|       
  S  S  S  S  S  S  S  S  S  S  S  S  S  S  S  S S  S Q     
-------------------10----------13-12-10---------------------|
--9-10-12-10-12-13----13-12-10----------13-12-10-9-10-L~----|
------------------------------------------------------------|
------------------------------------------------------------|
------------------------------------------------------------|
------------------------------------------------------------|
Naposledy upravil(a) Arguit dne úte 12. kvě 2009 7:59:43, celkem upraveno 1 x.

Uživatelský avatar
Banshee
Příspěvky: 160
Registrován: ned 01. čer 2008 11:16:31
Kontaktovat uživatele:

Re: Guitar Licks Exchange

Příspěvek od Banshee » pon 11. kvě 2009 14:32:20

a já, proč, že ze mně nevypadne kloudný sólo... 8-O
Potoky krve z četných zranění,
hromady mrtvol okolo
Takhle to skončit nemělo,
Zůstal jsem sám...

Uživatelský avatar
Arguit
Příspěvky: 106
Registrován: pát 22. srp 2008 23:16:44

Re: Guitar Licks Exchange

Příspěvek od Arguit » pon 11. kvě 2009 17:52:32

aaale.. urcite vypadne!! ^_^

Jen to chce se prave ucit stale nove licky a k tomu by prave mel slouzit tento topic..
A nemusi to byt nutne takovehle rychle licky.. jakekoliv jine.. staci rict/postnout.

Ja akorat zrovna zacal pracovat na harmonicke moll, tak sem to sem nafrkal. ^.^

Odpovědět

Kdo je online

Uživatelé prohlížející si toto fórum: Žádní registrovaní uživatelé a 2 hosti